  0
SECTION
  2
HEADER
  9
$ACADVER
  1
AC1015
  9
$ACADMAINTVER
 70
     6
  9
$DWGCODEPAGE
  3
ANSI_1254
  9
$INSBASE
 10
0.0
 20
0.0
 30
0.0
  9
$EXTMIN
 10
0.0
 20
0.0
 30
0.0
  9
$EXTMAX
 10
279.4
 20
215.9
 30
0.0
  9
$LIMMIN
 10
0.0
 20
0.0
  9
$LIMMAX
 10
279.4
 20
215.9
  9
$ORTHOMODE
 70
     0
  9
$REGENMODE
 70
     1
  9
$FILLMODE
 70
     1
  9
$QTEXTMODE
 70
     0
  9
$MIRRTEXT
 70
     1
  9
$LTSCALE
 40
1.0
  9
$ATTMODE
 70
     1
  9
$TEXTSIZE
 40
3.5
  9
$TRACEWID
 40
1.0
  9
$TEXTSTYLE
  7
Standard
  9
$CLAYER
  8
0
  9
$CELTYPE
  6
ByLayer
  9
$CECOLOR
 62
   256
  9
$CELTSCALE
 40
1.0
  9
$DISPSILH
 70
     0
  9
$DIMSCALE
 40
1.0
  9
$DIMASZ
 40
3.5
  9
$DIMEXO
 40
1.0
  9
$DIMDLI
 40
3.75
  9
$DIMRND
 40
0.0
  9
$DIMDLE
 40
0.0
  9
$DIMEXE
 40
1.0
  9
$DIMTP
 40
0.0
  9
$DIMTM
 40
0.0
  9
$DIMTXT
 40
3.5
  9
$DIMCEN
 40
2.5
  9
$DIMTSZ
 40
0.0
  9
$DIMTOL
 70
     0
  9
$DIMLIM
 70
     0
  9
$DIMTIH
 70
     1
  9
$DIMTOH
 70
     1
  9
$DIMSE1
 70
     0
  9
$DIMSE2
 70
     0
  9
$DIMTAD
 70
     1
  9
$DIMZIN
 70
     0
  9
$DIMBLK
  1

  9
$DIMASO
 70
     1
  9
$DIMSHO
 70
     1
  9
$DIMPOST
  1

  9
$DIMAPOST
  1

  9
$DIMALT
 70
     0
  9
$DIMALTD
 70
     3
  9
$DIMALTF
 40
0.0393700787
  9
$DIMLFAC
 40
1.0
  9
$DIMTOFL
 70
     1
  9
$DIMTVP
 40
0.0
  9
$DIMTIX
 70
     0
  9
$DIMSOXD
 70
     0
  9
$DIMSAH
 70
     0
  9
$DIMBLK1
  1

  9
$DIMBLK2
  1

  9
$DIMSTYLE
  2
ISO-25
  9
$DIMCLRD
 70
     0
  9
$DIMCLRE
 70
     0
  9
$DIMCLRT
 70
     0
  9
$DIMTFAC
 40
1.0
  9
$DIMGAP
 40
1.524
  9
$DIMJUST
 70
     0
  9
$DIMSD1
 70
     0
  9
$DIMSD2
 70
     0
  9
$DIMTOLJ
 70
     0
  9
$DIMTZIN
 70
     0
  9
$DIMALTZ
 70
     0
  9
$DIMALTTZ
 70
     0
  9
$DIMUPT
 70
     0
  9
$DIMDEC
 70
     2
  9
$DIMTDEC
 70
     2
  9
$DIMALTU
 70
     2
  9
$DIMALTTD
 70
     3
  9
$DIMTXSTY
  7
Standard
  9
$DIMAUNIT
 70
     0
  9
$DIMADEC
 70
     2
  9
$DIMALTRND
 40
0.0
  9
$DIMAZIN
 70
     0
  9
$DIMDSEP
 70
    44
  9
$DIMATFIT
 70
     3
  9
$DIMFRAC
 70
     0
  9
$DIMLDRBLK
  1

  9
$DIMLUNIT
 70
     2
  9
$DIMLWD
 70
    -2
  9
$DIMLWE
 70
    -2
  9
$DIMTMOVE
 70
     0
  9
$LUNITS
 70
     2
  9
$LUPREC
 70
     2
  9
$SKETCHINC
 40
1.0
  9
$FILLETRAD
 40
10.0
  9
$AUNITS
 70
     0
  9
$AUPREC
 70
     2
  9
$MENU
  1
.
  9
$ELEVATION
 40
0.0
  9
$PELEVATION
 40
0.0
  9
$THICKNESS
 40
0.0
  9
$LIMCHECK
 70
     0
  9
$CHAMFERA
 40
0.0
  9
$CHAMFERB
 40
0.0
  9
$CHAMFERC
 40
0.0
  9
$CHAMFERD
 40
0.0
  9
$SKPOLY
 70
     0
  9
$TDCREATE
 40
2458985.705501921
  9
$TDUCREATE
 40
2458985.580501921
  9
$TDUPDATE
 40
2458985.705502465
  9
$TDUUPDATE
 40
2458985.580502465
  9
$TDINDWG
 40
0.0000000116
  9
$TDUSRTIMER
 40
0.0000000116
  9
$USRTIMER
 70
     1
  9
$ANGBASE
 50
0.0
  9
$ANGDIR
 70
     0
  9
$PDMODE
 70
     0
  9
$PDSIZE
 40
-1.0
  9
$PLINEWID
 40
0.0
  9
$SPLFRAME
 70
     0
  9
$SPLINETYPE
 70
     6
  9
$SPLINESEGS
 70
     8
  9
$HANDSEED
  5
EE
  9
$SURFTAB1
 70
     6
  9
$SURFTAB2
 70
     6
  9
$SURFTYPE
 70
     6
  9
$SURFU
 70
     6
  9
$SURFV
 70
     6
  9
$UCSBASE
  2

  9
$UCSNAME
  2

  9
$UCSORG
 10
0.0
 20
0.0
 30
0.0
  9
$UCSXDIR
 10
1.0
 20
0.0
 30
0.0
  9
$UCSYDIR
 10
0.0
 20
1.0
 30
0.0
  9
$UCSORTHOREF
  2

  9
$UCSORTHOVIEW
 70
     0
  9
$UCSORGTOP
 10
0.0
 20
0.0
 30
0.0
  9
$UCSORGBOTTOM
 10
0.0
 20
0.0
 30
0.0
  9
$UCSORGLEFT
 10
0.0
 20
0.0
 30
0.0
  9
$UCSORGRIGHT
 10
0.0
 20
0.0
 30
0.0
  9
$UCSORGFRONT
 10
0.0
 20
0.0
 30
0.0
  9
$UCSORGBACK
 10
0.0
 20
0.0
 30
0.0
  9
$PUCSBASE
  2

  9
$PUCSNAME
  2

  9
$PUCSORG
 10
0.0
 20
0.0
 30
0.0
  9
$PUCSXDIR
 10
1.0
 20
0.0
 30
0.0
  9
$PUCSYDIR
 10
0.0
 20
1.0
 30
0.0
  9
$PUCSORTHOREF
  2

  9
$PUCSORTHOVIEW
 70
     0
  9
$PUCSORGTOP
 10
0.0
 20
0.0
 30
0.0
  9
$PUCSORGBOTTOM
 10
0.0
 20
0.0
 30
0.0
  9
$PUCSORGLEFT
 10
0.0
 20
0.0
 30
0.0
  9
$PUCSORGRIGHT
 10
0.0
 20
0.0
 30
0.0
  9
$PUCSORGFRONT
 10
0.0
 20
0.0
 30
0.0
  9
$PUCSORGBACK
 10
0.0
 20
0.0
 30
0.0
  9
$USERI1
 70
     0
  9
$USERI2
 70
     0
  9
$USERI3
 70
     0
  9
$USERI4
 70
     0
  9
$USERI5
 70
     0
  9
$USERR1
 40
0.0
  9
$USERR2
 40
0.0
  9
$USERR3
 40
0.0
  9
$USERR4
 40
0.0
  9
$USERR5
 40
0.0
  9
$WORLDVIEW
 70
     1
  9
$SHADEDGE
 70
     3
  9
$SHADEDIF
 70
    70
  9
$TILEMODE
 70
     1
  9
$MAXACTVP
 70
    64
  9
$PINSBASE
 10
0.0
 20
0.0
 30
0.0
  9
$PLIMCHECK
 70
     0
  9
$PEXTMIN
 10
1.0000000000E+20
 20
1.0000000000E+20
 30
1.0000000000E+20
  9
$PEXTMAX
 10
-1.0000000000E+20
 20
-1.0000000000E+20
 30
-1.0000000000E+20
  9
$PLIMMIN
 10
0.0
 20
0.0
  9
$PLIMMAX
 10
420.0
 20
297.0
  9
$UNITMODE
 70
     0
  9
$VISRETAIN
 70
     1
  9
$PLINEGEN
 70
     0
  9
$PSLTSCALE
 70
     1
  9
$TREEDEPTH
 70
  3020
  9
$CMLSTYLE
  2
Standard
  9
$CMLJUST
 70
     0
  9
$CMLSCALE
 40
20.0
  9
$PROXYGRAPHICS
 70
     1
  9
$MEASUREMENT
 70
     1
  9
$CELWEIGHT
370
    -1
  9
$ENDCAPS
280
     0
  9
$JOINSTYLE
280
     0
  9
$LWDISPLAY
290
     1
  9
$INSUNITS
 70
     4
  9
$HYPERLINKBASE
  1

  9
$STYLESHEET
  1

  9
$XEDIT
290
     1
  9
$CEPSNTYPE
380
     0
  9
$PSTYLEMODE
290
     1
  9
$FINGERPRINTGUID
  2
{95036d0e-5a73-4ef3-b2dc-34121f90e443}
  9
$VERSIONGUID
  2
{FAEB1C32-E019-11D5-929B-00C0DF256EC4}
  9
$EXTNAMES
290
     1
  9
$PSVPSCALE
 40
0.0
  9
$OLESTARTUP
290
     0
  0
ENDSEC
  0
SECTION
  2
CLASSES
  0
CLASS
  1
ACDBDICTIONARYWDFLT
  2
AcDbDictionaryWithDefault
  3
ObjectDBX Classes
 90
        0
280
     0
281
     0
  0
CLASS
  1
VISUALSTYLE
  2
AcDbVisualStyle
  3
ObjectDBX Classes
 90
     4095
280
     0
281
     0
  0
CLASS
  1
MATERIAL
  2
AcDbMaterial
  3
ObjectDBX Classes
 90
     1153
280
     0
281
     0
  0
CLASS
  1
SCALE
  2
AcDbScale
  3
ObjectDBX Classes
 90
     1153
280
     0
281
     0
  0
CLASS
  1
TABLESTYLE
  2
AcDbTableStyle
  3
ObjectDBX Classes
 90
     4095
280
     0
281
     0
  0
CLASS
  1
MLEADERSTYLE
  2
AcDbMLeaderStyle
  3
ACDB_MLEADERSTYLE_CLASS
 90
     4095
280
     0
281
     0
  0
CLASS
  1
SUN
  2
AcDbSun
  3
SCENEOE
 90
     1153
280
     0
281
     0
  0
CLASS
  1
ACDBPLACEHOLDER
  2
AcDbPlaceHolder
  3
ObjectDBX Classes
 90
        0
280
     0
281
     0
  0
CLASS
  1
LAYOUT
  2
AcDbLayout
  3
ObjectDBX Classes
 90
        0
280
     0
281
     0
  0
ENDSEC
  0
SECTION
  2
TABLES
  0
TABLE
  2
VPORT
  5
8
330
0
100
AcDbSymbolTable
 70
     1
  0
VPORT
  5
29
330
8
100
AcDbSymbolTableRecord
100
AcDbViewportTableRecord
  2
*Active
 70
     0
 10
0.0
 20
0.0
 11
1.0
 21
1.0
 12
139.7
 22
107.95
 13
0.0
 23
0.0
 14
10.0
 24
10.0
 15
10.0
 25
10.0
 16
0.0
 26
0.0
 36
1.0
 17
0.0
 27
0.0
 37
0.0
 40
215.9
 41
1.2941176471
 42
50.0
 43
0.0
 44
0.0
 50
0.0
 51
0.0
 71
     0
 72
  2000
 73
     1
 74
     3
 75
     0
 76
     0
 77
     0
 78
     0
281
     0
 65
     1
110
0.0
120
0.0
130
0.0
111
1.0
121
0.0
131
0.0
112
0.0
122
1.0
132
0.0
 79
     0
146
0.0
  0
ENDTAB
  0
TABLE
  2
LTYPE
  5
5
330
0
100
AcDbSymbolTable
 70
     6
  0
LTYPE
  5
14
330
5
100
AcDbSymbolTableRecord
100
AcDbLinetypeTableRecord
  2
ByBlock
 70
     0
  3

 72
    65
 73
     0
 40
0.0
  0
LTYPE
  5
15
330
5
100
AcDbSymbolTableRecord
100
AcDbLinetypeTableRecord
  2
ByLayer
 70
     0
  3

 72
    65
 73
     0
 40
0.0
  0
LTYPE
  5
16
330
5
100
AcDbSymbolTableRecord
100
AcDbLinetypeTableRecord
  2
Continuous
 70
     0
  3
Solid line
 72
    65
 73
     0
 40
0.0
  0
LTYPE
  5
6E
330
5
100
AcDbSymbolTableRecord
100
AcDbLinetypeTableRecord
  2
HIDDEN
 70
     0
  3
Hidden __ __ __ __ __ __ __ __ __ __ __ __ __ __
 72
    65
 73
     2
 40
1.905
 49
1.27
 74
     0
 49
-0.635
 74
     0
  0
LTYPE
  5
6F
330
5
100
AcDbSymbolTableRecord
100
AcDbLinetypeTableRecord
  2
PHANTOM
 70
     0
  3
Phantom ______  __  __  ______  __  __  ______
 72
    65
 73
     6
 40
12.7
 49
6.35
 74
     0
 49
-1.27
 74
     0
 49
1.27
 74
     0
 49
-1.27
 74
     0
 49
1.27
 74
     0
 49
-1.27
 74
     0
  0
LTYPE
  5
70
330
5
100
AcDbSymbolTableRecord
100
AcDbLinetypeTableRecord
  2
CENTER
 70
     0
  3
Center ____ _ ____ _ ____ _ ____ _ ____ _ ____
 72
    65
 73
     4
 40
10.16
 49
6.35
 74
     0
 49
-1.27
 74
     0
 49
1.27
 74
     0
 49
-1.27
 74
     0
  0
LTYPE
  5
71
330
5
100
AcDbSymbolTableRecord
100
AcDbLinetypeTableRecord
  2
CENTERX2
 70
     0
  3
Center (2x) ________  __  ________  __  _____
 72
    65
 73
     4
 40
20.32
 49
12.7
 74
     0
 49
-2.54
 74
     0
 49
2.54
 74
     0
 49
-2.54
 74
     0
  0
LTYPE
  5
72
330
5
100
AcDbSymbolTableRecord
100
AcDbLinetypeTableRecord
  2
DOT2
 70
     0
  3
Dot (.5x) ........................................
 72
    65
 73
     2
 40
0.635
 49
0.0
 74
     0
 49
-0.635
 74
     0
  0
ENDTAB
  0
TABLE
  2
LAYER
  5
2
330
0
100
AcDbSymbolTable
 70
    17
  0
LAYER
  5
10
330
2
100
AcDbSymbolTableRecord
100
AcDbLayerTableRecord
  2
0
 70
     0
 62
     7
  6
Continuous
370
    -3
390
F
  0
LAYER
  5
73
330
2
100
AcDbSymbolTableRecord
100
AcDbLayerTableRecord
  2
FORMAT
 70
     0
 62
     7
  6
Continuous
370
    -3
390
F
  0
LAYER
  5
74
330
2
100
AcDbSymbolTableRecord
100
AcDbLayerTableRecord
  2
YARDIMCI_GEOMETRI
 70
     0
 62
    -6
  6
Continuous
290
     0
370
    -3
390
F
  0
LAYER
  5
75
330
2
100
AcDbSymbolTableRecord
100
AcDbLayerTableRecord
  2
SAYFA_CERCEVESI
 70
     0
 62
     7
  6
Continuous
370
    25
390
F
  0
LAYER
  5
76
330
2
100
AcDbSymbolTableRecord
100
AcDbLayerTableRecord
  2
ANTET
 70
     0
 62
     7
  6
Continuous
370
    -3
390
F
  0
LAYER
  5
77
330
2
100
AcDbSymbolTableRecord
100
AcDbLayerTableRecord
  2
OLCU
 70
     0
 62
   150
  6
Continuous
370
    -3
390
F
  0
LAYER
  5
78
330
2
100
AcDbSymbolTableRecord
100
AcDbLayerTableRecord
  2
METIN
 70
     0
 62
    96
  6
Continuous
370
    -3
390
F
  0
LAYER
  5
79
330
2
100
AcDbSymbolTableRecord
100
AcDbLayerTableRecord
  2
BALON
 70
     0
 62
     5
  6
Continuous
370
    -3
390
F
  0
LAYER
  5
7A
330
2
100
AcDbSymbolTableRecord
100
AcDbLayerTableRecord
  2
VURGU
 70
     0
 62
     7
  6
Continuous
370
    -3
390
F
  0
LAYER
  5
7B
330
2
100
AcDbSymbolTableRecord
100
AcDbLayerTableRecord
  2
SILIK
 70
     0
 62
     7
  6
Continuous
370
    -3
390
F
  0
LAYER
  5
7C
330
2
100
AcDbSymbolTableRecord
100
AcDbLayerTableRecord
  2
MODEL
 70
     0
 62
     7
  6
Continuous
370
    -3
390
F
  0
LAYER
  5
7D
330
2
100
AcDbSymbolTableRecord
100
AcDbLayerTableRecord
  2
DETAYLANDıRMA
 70
     0
 62
   190
  6
Continuous
370
    -3
390
F
  0
LAYER
  5
7E
330
2
100
AcDbSymbolTableRecord
100
AcDbLayerTableRecord
  2
TOLERANS
 70
     0
 62
   230
  6
Continuous
370
    -3
390
F
  0
LAYER
  5
7F
330
2
100
AcDbSymbolTableRecord
100
AcDbLayerTableRecord
  2
MERKEZ_CIZGILERI
 70
     0
 62
    30
  6
Continuous
370
    -3
390
F
  0
LAYER
  5
80
330
2
100
AcDbSymbolTableRecord
100
AcDbLayerTableRecord
  2
KESIT-DETAY_CIZGILERI
 70
     0
 62
     7
  6
Continuous
370
    -3
390
F
  0
LAYER
  5
81
330
2
100
AcDbSymbolTableRecord
100
AcDbLayerTableRecord
  2
\U+041E\U+0421\U+0415\U+0412\U+042B\U+0415
 70
     0
 62
     7
  6
Continuous
370
    -3
390
F
  0
LAYER
  5
82
330
2
100
AcDbSymbolTableRecord
100
AcDbLayerTableRecord
  2
\U+0412\U+041E\U+0414\U+042F\U+041D\U+042B\U+0415_\U+0417\U+041D\U+0410\U+041A\U+0418
 70
     0
 62
    11
  6
Continuous
370
    -3
390
F
  0
ENDTAB
  0
TABLE
  2
STYLE
  5
3
330
0
100
AcDbSymbolTable
 70
     1
  0
STYLE
  5
11
330
3
100
AcDbSymbolTableRecord
100
AcDbTextStyleTableRecord
  2
Standard
 70
     0
 40
0.0
 41
1.0
 50
0.0
 71
     0
 42
3.5
  3
txt
  4

  0
ENDTAB
  0
TABLE
  2
VIEW
  5
6
330
0
100
AcDbSymbolTable
 70
     0
  0
ENDTAB
  0
TABLE
  2
UCS
  5
7
330
0
100
AcDbSymbolTable
 70
     0
  0
ENDTAB
  0
TABLE
  2
APPID
  5
9
330
0
100
AcDbSymbolTable
 70
     1
  0
APPID
  5
12
330
9
100
AcDbSymbolTableRecord
100
AcDbRegAppTableRecord
  2
ACAD
 70
     0
  0
ENDTAB
  0
TABLE
  2
DIMSTYLE
  5
A
330
0
100
AcDbSymbolTable
 70
     1
100
AcDbDimStyleTable
  0
DIMSTYLE
105
27
330
A
100
AcDbSymbolTableRecord
100
AcDbDimStyleTableRecord
  2
ISO-25
 70
     0
 41
2.5
 42
0.625
 43
3.75
 44
1.25
 73
     0
 74
     0
 77
     1
 78
     8
140
2.5
141
2.5
143
0.0393700787
147
0.625
171
     3
172
     1
178
     0
271
     2
272
     2
274
     3
278
    44
283
     0
284
     8
340
11
  0
ENDTAB
  0
TABLE
  2
BLOCK_RECORD
  5
1
330
0
100
AcDbSymbolTable
 70
     2
  0
BLOCK_RECORD
  5
1F
330
1
100
AcDbSymbolTableRecord
100
AcDbBlockTableRecord
  2
*Model_Space
340
22
  0
BLOCK_RECORD
  5
1B
330
1
100
AcDbSymbolTableRecord
100
AcDbBlockTableRecord
  2
*Paper_Space
340
1E
  0
BLOCK_RECORD
  5
23
330
1
100
AcDbSymbolTableRecord
100
AcDbBlockTableRecord
  2
*Paper_Space0
340
26
  0
BLOCK_RECORD
  5
88
330
1
100
AcDbSymbolTableRecord
100
AcDbBlockTableRecord
  2
SW_CENTERMARKSYMBOL_0
340
0
102
{BLKREFS
331
93
102
}
  0
ENDTAB
  0
ENDSEC
  0
SECTION
  2
BLOCKS
  0
BLOCK
  5
20
330
1F
100
AcDbEntity
  8
0
100
AcDbBlockBegin
  2
*Model_Space
 70
     0
 10
0.0
 20
0.0
 30
0.0
  3
*Model_Space
  1

  0
ENDBLK
  5
21
330
1F
100
AcDbEntity
  8
0
100
AcDbBlockEnd
  0
BLOCK
  5
1C
330
1B
100
AcDbEntity
 67
     1
  8
0
100
AcDbBlockBegin
  2
*Paper_Space
 70
     0
 10
0.0
 20
0.0
 30
0.0
  3
*Paper_Space
  1

  0
ENDBLK
  5
1D
330
1B
100
AcDbEntity
 67
     1
  8
0
100
AcDbBlockEnd
  0
BLOCK
  5
24
330
23
100
AcDbEntity
  8
0
100
AcDbBlockBegin
  2
*Paper_Space0
 70
     0
 10
0.0
 20
0.0
 30
0.0
  3
*Paper_Space0
  1

  0
ENDBLK
  5
25
330
23
100
AcDbEntity
  8
0
100
AcDbBlockEnd
  0
BLOCK
  5
89
330
88
100
AcDbEntity
  8
0
100
AcDbBlockBegin
  2
SW_CENTERMARKSYMBOL_0
 70
     0
 10
0.0
 20
0.0
 30
0.0
  3
SW_CENTERMARKSYMBOL_0
  1

  0
LINE
  5
8B
330
88
100
AcDbEntity
  8
FORMAT
 62
     0
100
AcDbLine
 10
0.0
 20
0.0
 30
0.0
 11
0.0
 21
2.5
 31
0.0
  0
LINE
  5
8C
330
88
100
AcDbEntity
  8
FORMAT
 62
     0
100
AcDbLine
 10
0.0
 20
0.0
 30
0.0
 11
-2.5
 21
0.0
 31
0.0
  0
LINE
  5
8D
330
88
100
AcDbEntity
  8
FORMAT
 62
     0
100
AcDbLine
 10
0.0
 20
0.0
 30
0.0
 11
0.0
 21
-2.5
 31
0.0
  0
LINE
  5
8E
330
88
100
AcDbEntity
  8
FORMAT
 62
     0
100
AcDbLine
 10
0.0
 20
0.0
 30
0.0
 11
2.5
 21
0.0
 31
0.0
  0
LINE
  5
8F
330
88
100
AcDbEntity
  8
FORMAT
 62
     0
100
AcDbLine
 10
0.0
 20
5.0
 30
0.0
 11
0.0
 21
65.0
 31
0.0
  0
LINE
  5
90
330
88
100
AcDbEntity
  8
FORMAT
 62
     0
100
AcDbLine
 10
-5.0
 20
0.0
 30
0.0
 11
-65.0
 21
0.0
 31
0.0
  0
LINE
  5
91
330
88
100
AcDbEntity
  8
FORMAT
 62
     0
100
AcDbLine
 10
0.0
 20
-5.0
 30
0.0
 11
0.0
 21
-65.0
 31
0.0
  0
LINE
  5
92
330
88
100
AcDbEntity
  8
FORMAT
 62
     0
100
AcDbLine
 10
5.0
 20
0.0
 30
0.0
 11
65.0
 21
0.0
 31
0.0
  0
ENDBLK
  5
8A
330
88
100
AcDbEntity
  8
0
100
AcDbBlockEnd
  0
ENDSEC
  0
SECTION
  2
ENTITIES
  0
CIRCLE
  5
83
330
1F
100
AcDbEntity
  8
0
  6
Continuous
 62
     7
370
    25
100
AcDbCircle
 10
136.0804557792
 20
118.8813202377
 30
0.0
 40
62.5
  0
CIRCLE
  5
84
330
1F
100
AcDbEntity
  8
0
  6
Continuous
 62
     7
370
    25
100
AcDbCircle
 10
136.0804557792
 20
118.8813202377
 30
0.0
 40
55.10000000000001
  0
CIRCLE
  5
85
330
1F
100
AcDbEntity
  8
0
  6
Continuous
 62
     7
370
    25
100
AcDbCircle
 10
136.0804557792
 20
118.8813202377
 30
0.0
 40
54.6916204318326
  0
CIRCLE
  5
86
330
1F
100
AcDbEntity
  8
0
  6
Continuous
 62
     7
370
    25
100
AcDbCircle
 10
136.0804557792
 20
118.8813202377
 30
0.0
 40
33.40837956816742
  0
CIRCLE
  5
87
330
1F
100
AcDbEntity
  8
0
  6
Continuous
 62
     7
370
    25
100
AcDbCircle
 10
136.0804557792
 20
118.8813202377
 30
0.0
 40
33.00000000000001
  0
INSERT
  5
93
330
1F
100
AcDbEntity
  8
FORMAT
 62
     7
100
AcDbBlockReference
  2
SW_CENTERMARKSYMBOL_0
 10
136.0804557792
 20
118.8813202377
 30
0.0
  0
ARC
  5
94
330
1F
100
AcDbEntity
  8
0
  6
Continuous
 62
     7
370
    25
100
AcDbCircle
 10
-116.5582452284
 20
179.3813202377
 30
0.0
 40
2.000000000000028
100
AcDbArc
 50
66.6822916132
 51
90.0
  0
ARC
  5
95
330
1F
100
AcDbEntity
  8
0
  6
Continuous
 62
     7
370
    25
100
AcDbCircle
 10
-116.5582452284
 20
58.3813202377
 30
0.0
 40
2.000000000000017
100
AcDbArc
 50
270.0
 51
293.3177083868
  0
LINE
  5
96
330
1F
100
AcDbEntity
  8
0
  6
Continuous
 62
     7
370
    25
100
AcDbLine
 10
-116.5582454025
 20
181.3813202377
 30
0.0
 11
-203.1455626905
 21
181.3813202377
 31
0.0
  0
LINE
  5
97
330
1F
100
AcDbEntity
  8
0
  6
Continuous
 62
     7
370
    25
100
AcDbLine
 10
-203.1455626905
 20
56.3813202377
 30
0.0
 11
-116.5582454025
 21
56.3813202377
 31
0.0
  0
LINE
  5
98
330
1F
100
AcDbEntity
  8
0
  6
Continuous
 62
     7
370
    25
100
AcDbLine
 10
-115.7665858239
 20
56.544670492
 30
0.0
 11
-58.5245406448
 21
81.2179684933
 31
0.0
  0
LINE
  5
99
330
1F
100
AcDbEntity
  8
0
  6
Continuous
 62
     7
370
    25
100
AcDbLine
 10
-58.5245406448
 20
156.5446719821
 30
0.0
 11
-115.7665858239
 21
181.2179699834
 31
0.0
  0
ARC
  5
9A
330
1F
100
AcDbEntity
  8
0
  6
Continuous
 62
     7
370
    25
100
AcDbCircle
 10
-57.7328803166
 20
158.3813202377
 30
0.0
 40
2.000000000000013
100
AcDbArc
 50
246.6822916132
 51
270.0
  0
ARC
  5
9B
330
1F
100
AcDbEntity
  8
0
  6
Continuous
 62
     7
370
    25
100
AcDbCircle
 10
-57.7328803166
 20
79.3813202377
 30
0.0
 40
2.0
100
AcDbArc
 50
90.0
 51
113.3177083868
  0
LINE
  5
9C
330
1F
100
AcDbEntity
  8
0
  6
Continuous
 62
     7
370
    25
100
AcDbLine
 10
11.8544408858
 20
156.3813217278
 30
0.0
 11
-57.7328792035
 21
156.3813217278
 31
0.0
  0
LINE
  5
9D
330
1F
100
AcDbEntity
  8
0
  6
Continuous
 62
     7
370
    25
100
AcDbLine
 10
-57.7328792035
 20
81.3813187476
 30
0.0
 11
11.8544408858
 21
81.3813187476
 31
0.0
  0
LINE
  5
9E
330
1F
100
AcDbEntity
  8
0
  6
Continuous
 62
     7
370
    25
100
AcDbLine
 10
-203.1455626905
 20
181.3813202377
 30
0.0
 11
-203.1455626905
 21
56.3813202377
 31
0.0
  0
LINE
  5
9F
330
1F
100
AcDbEntity
  8
0
  6
Continuous
 62
     7
370
    25
100
AcDbLine
 10
11.8544408858
 20
156.3813217278
 30
0.0
 11
11.8544408858
 21
81.3813187476
 31
0.0
  0
LINE
  5
A0
330
1F
100
AcDbEntity
  8
0
  6
Continuous
 62
     1
370
    25
100
AcDbLine
 10
-115.7665858239
 20
181.2179699834
 30
0.0
 11
-115.7665858239
 21
56.544670492
 31
0.0
  0
LINE
  5
A1
330
1F
100
AcDbEntity
  8
0
  6
Continuous
 62
     1
370
    25
100
AcDbLine
 10
-116.5582454025
 20
181.3813202377
 30
0.0
 11
-116.5582454025
 21
56.3813202377
 31
0.0
  0
LINE
  5
A2
330
1F
100
AcDbEntity
  8
0
  6
Continuous
 62
     1
370
    25
100
AcDbLine
 10
-58.5245406448
 20
156.5446719821
 30
0.0
 11
-58.5245406448
 21
81.2179684933
 31
0.0
  0
LINE
  5
A3
330
1F
100
AcDbEntity
  8
0
  6
Continuous
 62
     1
370
    25
100
AcDbLine
 10
-57.7328792035
 20
156.3813217278
 30
0.0
 11
-57.7328792035
 21
81.3813187476
 31
0.0
  0
ARC
  5
A4
330
1F
100
AcDbEntity
  8
0
  6
Continuous
 62
     7
370
    25
100
AcDbCircle
 10
196.5804557792
 20
336.712886316
 30
0.0
 40
2.000000000000037
100
AcDbArc
 50
336.6822916132
 51
0.0
  0
ARC
  5
A5
330
1F
100
AcDbEntity
  8
0
  6
Continuous
 62
     7
370
    25
100
AcDbCircle
 10
75.5804557792
 20
336.712886316
 30
0.0
 40
2.000000000000024
100
AcDbArc
 50
180.0
 51
203.3177083868
  0
LINE
  5
A6
330
1F
100
AcDbEntity
  8
0
  6
Continuous
 62
     7
370
    25
100
AcDbLine
 10
198.5804557792
 20
336.7128864902
 30
0.0
 11
198.5804557792
 21
423.3002037781
 31
0.0
  0
LINE
  5
A7
330
1F
100
AcDbEntity
  8
0
  6
Continuous
 62
     7
370
    25
100
AcDbLine
 10
73.5804557792
 20
423.3002037781
 30
0.0
 11
73.5804557792
 21
336.7128864902
 31
0.0
  0
LINE
  5
A8
330
1F
100
AcDbEntity
  8
0
  6
Continuous
 62
     7
370
    25
100
AcDbLine
 10
73.7438060335
 20
335.9212269115
 30
0.0
 11
98.4171040348
 21
278.6791817325
 31
0.0
  0
LINE
  5
A9
330
1F
100
AcDbEntity
  8
0
  6
Continuous
 62
     7
370
    25
100
AcDbLine
 10
173.7438075236
 20
278.6791817325
 30
0.0
 11
198.4171055249
 21
335.9212269115
 31
0.0
  0
ARC
  5
AA
330
1F
100
AcDbEntity
  8
0
  6
Continuous
 62
     7
370
    25
100
AcDbCircle
 10
175.5804557792
 20
277.8875214043
 30
0.0
 40
2.000000000000011
100
AcDbArc
 50
156.6822916132
 51
180.0
  0
ARC
  5
AB
330
1F
100
AcDbEntity
  8
0
  6
Continuous
 62
     7
370
    25
100
AcDbCircle
 10
96.5804557792
 20
277.8875214043
 30
0.0
 40
2.000000000000011
100
AcDbArc
 50
0.0
 51
23.3177083868
  0
LINE
  5
AC
330
1F
100
AcDbEntity
  8
0
  6
Continuous
 62
     7
370
    25
100
AcDbLine
 10
173.5804572693
 20
208.3002002019
 30
0.0
 11
173.5804572693
 21
277.8875202912
 31
0.0
  0
LINE
  5
AD
330
1F
100
AcDbEntity
  8
0
  6
Continuous
 62
     7
370
    25
100
AcDbLine
 10
98.5804542891
 20
277.8875202912
 30
0.0
 11
98.5804542891
 21
208.3002002019
 31
0.0
  0
LINE
  5
AE
330
1F
100
AcDbEntity
  8
0
  6
Continuous
 62
     7
370
    25
100
AcDbLine
 10
198.5804557792
 20
423.3002037781
 30
0.0
 11
73.5804557792
 21
423.3002037781
 31
0.0
  0
LINE
  5
AF
330
1F
100
AcDbEntity
  8
0
  6
Continuous
 62
     7
370
    25
100
AcDbLine
 10
173.5804572693
 20
208.3002002019
 30
0.0
 11
98.5804542891
 21
208.3002002019
 31
0.0
  0
LINE
  5
B0
330
1F
100
AcDbEntity
  8
0
  6
Continuous
 62
     1
370
    25
100
AcDbLine
 10
198.4171055249
 20
335.9212269115
 30
0.0
 11
73.7438060335
 21
335.9212269115
 31
0.0
  0
LINE
  5
B1
330
1F
100
AcDbEntity
  8
0
  6
Continuous
 62
     1
370
    25
100
AcDbLine
 10
198.5804557792
 20
336.7128864902
 30
0.0
 11
73.5804557792
 21
336.7128864902
 31
0.0
  0
LINE
  5
B2
330
1F
100
AcDbEntity
  8
0
  6
Continuous
 62
     1
370
    25
100
AcDbLine
 10
173.7438075236
 20
278.6791817325
 30
0.0
 11
98.4171040348
 21
278.6791817325
 31
0.0
  0
LINE
  5
B3
330
1F
100
AcDbEntity
  8
0
  6
Continuous
 62
     1
370
    25
100
AcDbLine
 10
173.5804572693
 20
277.8875202912
 30
0.0
 11
98.5804542891
 21
277.8875202912
 31
0.0
  0
ARC
  5
B4
330
1F
100
AcDbEntity
  8
0
  6
Continuous
 62
     7
370
    25
100
AcDbCircle
 10
387.2915156661
 20
58.3813202377
 30
0.0
 40
2.000000000000014
100
AcDbArc
 50
246.6822916132
 51
270.0
  0
ARC
  5
B5
330
1F
100
AcDbEntity
  8
0
  6
Continuous
 62
     7
370
    25
100
AcDbCircle
 10
387.2915156661
 20
179.3813202377
 30
0.0
 40
2.000000000000028
100
AcDbArc
 50
90.0
 51
113.3177083868
  0
LINE
  5
B6
330
1F
100
AcDbEntity
  8
0
  6
Continuous
 62
     7
370
    25
100
AcDbLine
 10
387.2915158403
 20
56.3813202377
 30
0.0
 11
473.8788331282
 21
56.3813202377
 31
0.0
  0
LINE
  5
B7
330
1F
100
AcDbEntity
  8
0
  6
Continuous
 62
     7
370
    25
100
AcDbLine
 10
473.8788331282
 20
181.3813202377
 30
0.0
 11
387.2915158403
 21
181.3813202377
 31
0.0
  0
LINE
  5
B8
330
1F
100
AcDbEntity
  8
0
  6
Continuous
 62
     7
370
    25
100
AcDbLine
 10
386.4998562616
 20
181.2179699834
 30
0.0
 11
329.2578110826
 21
156.5446719821
 31
0.0
  0
LINE
  5
B9
330
1F
100
AcDbEntity
  8
0
  6
Continuous
 62
     7
370
    25
100
AcDbLine
 10
329.2578110826
 20
81.2179684933
 30
0.0
 11
386.4998562616
 21
56.544670492
 31
0.0
  0
ARC
  5
BA
330
1F
100
AcDbEntity
  8
0
  6
Continuous
 62
     7
370
    25
100
AcDbCircle
 10
328.4661507543
 20
79.3813202377
 30
0.0
 40
2.00000000000002
100
AcDbArc
 50
66.6822916132
 51
90.0
  0
ARC
  5
BB
330
1F
100
AcDbEntity
  8
0
  6
Continuous
 62
     7
370
    25
100
AcDbCircle
 10
328.4661507543
 20
158.3813202377
 30
0.0
 40
2.000000000000033
100
AcDbArc
 50
270.0
 51
293.3177083868
  0
LINE
  5
BC
330
1F
100
AcDbEntity
  8
0
  6
Continuous
 62
     7
370
    25
100
AcDbLine
 10
258.8788295519
 20
81.3813187476
 30
0.0
 11
328.4661496412
 21
81.3813187476
 31
0.0
  0
LINE
  5
BD
330
1F
100
AcDbEntity
  8
0
  6
Continuous
 62
     7
370
    25
100
AcDbLine
 10
328.4661496412
 20
156.3813217278
 30
0.0
 11
258.8788295519
 21
156.3813217278
 31
0.0
  0
LINE
  5
BE
330
1F
100
AcDbEntity
  8
0
  6
Continuous
 62
     7
370
    25
100
AcDbLine
 10
473.8788331282
 20
118.8813202377
 30
0.0
 11
473.8788331282
 21
181.3813202377
 31
0.0
  0
LINE
  5
BF
330
1F
100
AcDbEntity
  8
0
  6
Continuous
 62
     7
370
    25
100
AcDbLine
 10
473.8788331282
 20
56.3813202377
 30
0.0
 11
473.8788331282
 21
118.8813202377
 31
0.0
  0
LINE
  5
C0
330
1F
100
AcDbEntity
  8
0
  6
Continuous
 62
     7
370
    25
100
AcDbLine
 10
258.8788295519
 20
118.8813202377
 30
0.0
 11
258.8788295519
 21
156.3813217278
 31
0.0
  0
LINE
  5
C1
330
1F
100
AcDbEntity
  8
0
  6
Continuous
 62
     7
370
    25
100
AcDbLine
 10
258.8788295519
 20
81.3813187476
 30
0.0
 11
258.8788295519
 21
118.8813202377
 31
0.0
  0
LINE
  5
C2
330
1F
100
AcDbEntity
  8
0
  6
Continuous
 62
     1
370
    25
100
AcDbLine
 10
386.4998562616
 20
118.8813202377
 30
0.0
 11
386.4998562616
 21
181.2179699834
 31
0.0
  0
LINE
  5
C3
330
1F
100
AcDbEntity
  8
0
  6
Continuous
 62
     1
370
    25
100
AcDbLine
 10
386.4998562616
 20
56.544670492
 30
0.0
 11
386.4998562616
 21
118.8813202377
 31
0.0
  0
LINE
  5
C4
330
1F
100
AcDbEntity
  8
0
  6
Continuous
 62
     1
370
    25
100
AcDbLine
 10
387.2915158403
 20
118.8813202377
 30
0.0
 11
387.2915158403
 21
181.3813202377
 31
0.0
  0
LINE
  5
C5
330
1F
100
AcDbEntity
  8
0
  6
Continuous
 62
     1
370
    25
100
AcDbLine
 10
387.2915158403
 20
56.3813202377
 30
0.0
 11
387.2915158403
 21
118.8813202377
 31
0.0
  0
LINE
  5
C6
330
1F
100
AcDbEntity
  8
0
  6
Continuous
 62
     1
370
    25
100
AcDbLine
 10
329.2578110826
 20
118.8813202377
 30
0.0
 11
329.2578110826
 21
156.5446719821
 31
0.0
  0
LINE
  5
C7
330
1F
100
AcDbEntity
  8
0
  6
Continuous
 62
     1
370
    25
100
AcDbLine
 10
329.2578110826
 20
81.2179684933
 30
0.0
 11
329.2578110826
 21
118.8813202377
 31
0.0
  0
LINE
  5
C8
330
1F
100
AcDbEntity
  8
0
  6
Continuous
 62
     1
370
    25
100
AcDbLine
 10
328.4661496412
 20
118.8813202377
 30
0.0
 11
328.4661496412
 21
156.3813217278
 31
0.0
  0
LINE
  5
C9
330
1F
100
AcDbEntity
  8
0
  6
Continuous
 62
     1
370
    25
100
AcDbLine
 10
328.4661496412
 20
81.3813187476
 30
0.0
 11
328.4661496412
 21
118.8813202377
 31
0.0
  0
ARC
  5
CA
330
1F
100
AcDbEntity
  8
0
  6
Continuous
 62
     7
370
    25
100
AcDbCircle
 10
75.5804557792
 20
-121.3541841624
 30
0.0
 40
2.000000000000024
100
AcDbArc
 50
156.6822916132
 51
180.0
  0
ARC
  5
CB
330
1F
100
AcDbEntity
  8
0
  6
Continuous
 62
     7
370
    25
100
AcDbCircle
 10
196.5804557792
 20
-121.3541841624
 30
0.0
 40
2.000000000000037
100
AcDbArc
 50
0.0
 51
23.3177083868
  0
LINE
  5
CC
330
1F
100
AcDbEntity
  8
0
  6
Continuous
 62
     7
370
    25
100
AcDbLine
 10
73.5804557792
 20
-121.3541843366
 30
0.0
 11
73.5804557792
 21
-207.9415016245
 31
0.0
  0
LINE
  5
CD
330
1F
100
AcDbEntity
  8
0
  6
Continuous
 62
     7
370
    25
100
AcDbLine
 10
198.5804557792
 20
-207.9415016245
 30
0.0
 11
198.5804557792
 21
-121.3541843366
 31
0.0
  0
LINE
  5
CE
330
1F
100
AcDbEntity
  8
0
  6
Continuous
 62
     7
370
    25
100
AcDbLine
 10
198.4171055249
 20
-120.5625247579
 30
0.0
 11
173.7438075236
 21
-63.3204795789
 31
0.0
  0
LINE
  5
CF
330
1F
100
AcDbEntity
  8
0
  6
Continuous
 62
     7
370
    25
100
AcDbLine
 10
98.4171040348
 20
-63.3204795789
 30
0.0
 11
73.7438060335
 21
-120.5625247579
 31
0.0
  0
ARC
  5
D0
330
1F
100
AcDbEntity
  8
0
  6
Continuous
 62
     7
370
    25
100
AcDbCircle
 10
96.5804557792
 20
-62.5288192507
 30
0.0
 40
2.000000000000011
100
AcDbArc
 50
336.6822916132
 51
0.0
  0
ARC
  5
D1
330
1F
100
AcDbEntity
  8
0
  6
Continuous
 62
     7
370
    25
100
AcDbCircle
 10
175.5804557792
 20
-62.5288192507
 30
0.0
 40
2.000000000000011
100
AcDbArc
 50
180.0
 51
203.3177083868
  0
LINE
  5
D2
330
1F
100
AcDbEntity
  8
0
  6
Continuous
 62
     7
370
    25
100
AcDbLine
 10
98.5804542891
 20
7.0585019517
 30
0.0
 11
98.5804542891
 21
-62.5288181376
 31
0.0
  0
LINE
  5
D3
330
1F
100
AcDbEntity
  8
0
  6
Continuous
 62
     7
370
    25
100
AcDbLine
 10
173.5804572693
 20
-62.5288181376
 30
0.0
 11
173.5804572693
 21
7.0585019517
 31
0.0
  0
LINE
  5
D4
330
1F
100
AcDbEntity
  8
0
  6
Continuous
 62
     7
370
    25
100
AcDbLine
 10
73.5804557792
 20
-207.9415016245
 30
0.0
 11
198.5804557792
 21
-207.9415016245
 31
0.0
  0
LINE
  5
D5
330
1F
100
AcDbEntity
  8
0
  6
Continuous
 62
     7
370
    25
100
AcDbLine
 10
98.5804542891
 20
7.0585019517
 30
0.0
 11
173.5804572693
 21
7.0585019517
 31
0.0
  0
LINE
  5
D6
330
1F
100
AcDbEntity
  8
0
  6
Continuous
 62
     1
370
    25
100
AcDbLine
 10
73.7438060335
 20
-120.5625247579
 30
0.0
 11
198.4171055249
 21
-120.5625247579
 31
0.0
  0
LINE
  5
D7
330
1F
100
AcDbEntity
  8
0
  6
Continuous
 62
     1
370
    25
100
AcDbLine
 10
73.5804557792
 20
-121.3541843366
 30
0.0
 11
198.5804557792
 21
-121.3541843366
 31
0.0
  0
LINE
  5
D8
330
1F
100
AcDbEntity
  8
0
  6
Continuous
 62
     1
370
    25
100
AcDbLine
 10
98.4171040348
 20
-63.3204795789
 30
0.0
 11
173.7438075236
 21
-63.3204795789
 31
0.0
  0
LINE
  5
D9
330
1F
100
AcDbEntity
  8
0
  6
Continuous
 62
     1
370
    25
100
AcDbLine
 10
98.5804542891
 20
-62.5288181376
 30
0.0
 11
173.5804572693
 21
-62.5288181376
 31
0.0
  0
LINE
  5
DA
330
1F
100
AcDbEntity
  8
0
  6
Continuous
 62
     7
370
    25
100
AcDbLine
 10
376.3844764651
 20
-23.5730310244
 30
0.0
 11
315.157997246
 21
11.772263083
 31
0.0
  0
LINE
  5
DB
330
1F
100
AcDbEntity
  8
0
  6
Continuous
 62
     7
370
    25
100
AcDbLine
 10
252.6630770109
 20
-96.4838430411
 30
0.0
 11
313.8895562299
 21
-131.8291371485
 31
0.0
  0
SPLINE
  5
DC
330
1F
100
AcDbEntity
  8
0
  6
Continuous
 62
     7
370
    25
100
AcDbSpline
210
0.0
220
0.0
230
1.0
 70
     8
 71
     3
 72
    11
 73
     7
 74
     0
 42
0.000000001
 43
0.00000001
 40
0.0
 40
0.0
 40
0.0
 40
0.0
 40
0.1526489918111119
 40
0.441486799735565
 40
0.729066159499711
 40
1.0
 40
1.0
 40
1.0
 40
1.0
 10
383.4322395458182
 20
-29.95826014928715
 30
0.0
 10
383.2182859267653
 20
-29.66307318901659
 30
0.0
 10
382.5994957372802
 20
-28.80934238564003
 30
0.0
 10
381.4554635305699
 20
-27.54317305181114
 30
0.0
 10
380.05069208968
 20
-26.16931033515821
 30
0.0
 10
379.0398833171113
 20
-25.38393499238814
 30
0.0
 10
378.5495416338103
 20
-25.00295069738814
 30
0.0
  0
SPLINE
  5
DD
330
1F
100
AcDbEntity
  8
0
  6
Continuous
 62
     7
370
    25
100
AcDbSpline
210
0.0
220
0.0
230
1.0
 70
     8
 71
     3
 72
    12
 73
     8
 74
     0
 42
0.000000001
 43
0.00000001
 40
0.0
 40
0.0
 40
0.0
 40
0.0
 40
0.0573063164177788
 40
0.3373770918094894
 40
0.6179184242751874
 40
0.8992633650749138
 40
1.0
 40
1.0
 40
1.0
 40
1.0
 10
316.1275683738472
 20
-132.9426610827163
 30
0.0
 10
316.247906103328
 20
-132.9998293394371
 30
0.0
 10
316.9563654101733
 20
-133.3363936381378
 30
0.0
 10
318.3289065667234
 20
-133.805527533854
 30
0.0
 10
320.246360341053
 20
-134.3278931147292
 30
0.0
 10
321.7994985036339
 20
-134.6360975706271
 30
0.0
 10
322.7266918729535
 20
-134.7217947851518
 30
0.0
 10
322.9711484128244
 20
-134.7443890413583
 30
0.0
  0
LINE
  5
DE
330
1F
100
AcDbEntity
  8
0
  6
Continuous
 62
     7
370
    25
100
AcDbLine
 10
325.5153718991
 20
-134.9266974562
 30
0.0
 11
373.9795667523
 21
-135.7707285941
 31
0.0
  0
LINE
  5
DF
330
1F
100
AcDbEntity
  8
0
  6
Continuous
 62
     7
370
    25
100
AcDbLine
 10
409.8476991418
 20
-73.6385710086
 30
0.0
 11
384.880750338
 21
-32.09170531
 31
0.0
  0
LINE
  5
E0
330
1F
100
AcDbEntity
  8
0
  6
Continuous
 62
     7
370
    25
100
AcDbLine
 10
454.6869739463
 20
-97.642830558
 30
0.0
 11
408.1169980767
 21
-70.7585557363
 31
0.0
  0
LINE
  5
E1
330
1F
100
AcDbEntity
  8
0
  6
Continuous
 62
     7
370
    25
100
AcDbLine
 10
370.6200454088
 20
-135.71222154
 30
0.0
 11
417.1900212784
 21
-162.5964963617
 31
0.0
  0
LWPOLYLINE
  5
E2
330
1F
100
AcDbEntity
  8
0
  6
Continuous
 62
     7
370
    25
100
AcDbPolyline
 90
        3
 70
   128
 43
0.0
 10
376.3844764651
 20
-23.5730310244
 10
377.4539343068
 20
-24.2341911198
 10
378.4935758873
 20
-24.9672775605
  0
LWPOLYLINE
  5
E3
330
1F
100
AcDbEntity
  8
0
  6
Continuous
 62
     7
370
    25
100
AcDbPolyline
 90
        3
 70
   128
 43
0.0
 10
315.9878555223
 20
-132.8877326021
 10
315.4438002941
 20
-132.6412748448
 10
313.8895562299
 20
-131.8291371485
  0
LWPOLYLINE
  5
E4
330
1F
100
AcDbEntity
  8
0
  6
Continuous
 62
     7
370
    25
100
AcDbPolyline
 90
      114
 70
   128
 43
0.0
 10
239.7163633043
 20
-67.8685434735
 10
239.7846649065
 20
-64.9929223877
 10
239.9893563446
 20
-62.0473317417
 10
240.329805416
 20
-59.0408755479
 10
240.8049584494
 20
-55.9828478947
 10
241.4133508418
 20
-52.8826985368
 10
242.153099156
 20
-49.7500106508
 10
243.0219169254
 20
-46.5944692777
 10
244.0171199226
 20
-43.4258248206
 10
245.1356287934
 20
-40.2538732737
 10
246.3739901306
 20
-37.0884197213
 10
247.7283764733
 20
-33.939246399
 10
249.1945968443
 20
-30.8160868386
 10
250.7681257259
 20
-27.7285984941
 10
252.4440925227
 20
-24.6863216759
 10
254.2173210751
 20
-21.6986567405
 10
256.0823322926
 20
-18.774844319
 10
258.0333546912
 20
-15.9239196899
 10
260.0643639057
 20
-13.1546960527
 10
262.1690813728
 20
-10.4757287863
 10
264.3409993558
 20
-7.8953010024
 10
266.5734059688
 20
-5.4213878059
 10
268.8594009827
 20
-3.0616380456
 10
271.1919168976
 20
-0.8233438975
 10
273.5637466027
 20
1.2865751024
 10
275.9675572046
 20
3.2615982926
 10
278.3959190044
 20
5.0956206138
 10
280.8413262409
 20
6.7829737095
 10
283.2962202227
 20
8.3184423214
 10
285.7530131175
 20
9.6972780233
 10
288.2041110018
 20
10.9152246942
 10
290.6419374032
 20
11.9685077745
 10
293.0589577495
 20
12.8538818402
 10
295.4477008531
 20
13.5686065039
 10
297.800783113
 20
14.1104695115
 10
300.1109309053
 20
14.4777996677
 10
302.3710056073
 20
14.6694599899
 10
304.5740187448
 20
14.684856452
 10
306.7131622846
 20
14.5239463462
 10
308.7818244399
 20
14.187223073
 10
310.7736107436
 20
13.675731348
 10
312.6823651215
 20
12.9910459069
 10
314.502189649
 20
12.1352889947
 10
316.2274550877
 20
11.1111029876
 10
317.8528298613
 20
9.9216519116
 10
319.3732905922
 20
8.5706153575
 10
320.7841405411
 20
7.0621687072
 10
322.0810148748
 20
5.4009740079
 10
323.2599070087
 20
3.59216476
 10
324.3171712403
 20
1.6413337497
 10
325.2495411889
 20
-0.4454897667
 10
326.0541350637
 20
-2.6618567934
 10
326.7284662006
 20
-5.0009130451
 10
327.2704483307
 20
-7.4554331682
 10
327.6784087508
 20
-10.0178268255
 10
327.9510830556
 20
-12.6801770995
 10
328.0876335764
 20
-15.4342511402
 10
328.0876335764
 20
-18.2715389478
 10
327.9510830556
 20
-21.183270864
 10
327.6784087508
 20
-24.1604441891
 10
327.2704483307
 20
-27.1938589216
 10
326.7284662006
 20
-30.2741382923
 10
326.0541350637
 20
-33.3917607025
 10
325.2495411889
 20
-36.5370920436
 10
324.3171712403
 20
-39.7004069888
 10
323.2599070087
 20
-42.8719292978
 10
322.0810148748
 20
-46.0418584312
 10
320.7841405411
 20
-49.2003923645
 10
319.3732905922
 20
-52.3377716929
 10
317.8528298613
 20
-55.4442948403
 10
316.2274550877
 20
-58.510363685
 10
314.502189649
 20
-61.5264987678
 10
312.6823651215
 20
-64.4833803558
 10
310.7736107436
 20
-67.3718666923
 10
308.7818244399
 20
-70.1830259338
 10
306.7131622846
 20
-72.9081756924
 10
304.5740187448
 20
-75.538888358
 10
302.3710056073
 20
-78.0670367237
 10
300.1109309053
 20
-80.4848031092
 10
297.800783113
 20
-82.7847128201
 10
295.4477008531
 20
-84.9596607609
 10
293.0589577495
 20
-87.0029201793
 10
290.6419374032
 20
-88.9081784051
 10
288.2041110018
 20
-90.6695497763
 10
285.7530131175
 20
-92.2815804848
 10
283.2962202227
 20
-93.7392974815
 10
280.8413262409
 20
-95.0381891299
 10
278.3959190044
 20
-96.1742431316
 10
275.9675572046
 20
-97.1439476655
 10
273.5637466027
 20
-97.9443051206
 10
271.1919168976
 20
-98.5728424085
 10
268.8594009827
 20
-99.0276138123
 10
266.5734059688
 20
-99.3072177148
 10
264.3409993558
 20
-99.4107863305
 10
262.1690813728
 20
-99.3380016729
 10
260.0643639057
 20
-99.0890894689
 10
258.0333546912
 20
-98.6648191571
 10
256.0823322926
 20
-98.0664970413
 10
254.2173210751
 20
-97.2959807374
 10
252.4440925227
 20
-96.35564191
 10
250.7681257259
 20
-95.2483951672
 10
249.1945968443
 20
-93.9776645985
 10
247.7283764733
 20
-92.5473670449
 10
246.3739901306
 20
-90.9619349088
 10
245.1356287934
 20
-89.2262629225
 10
244.0171199226
 20
-87.3457142296
 10
243.0219169254
 20
-85.3261066951
 10
242.153099156
 20
-83.1736809666
 10
241.4133508418
 20
-80.8950883042
 10
240.8049584494
 20
-78.4973738509
 10
240.329805416
 20
-75.9879462128
 10
239.9893563446
 20
-73.37456415
 10
239.7846649065
 20
-70.665305208
 10
239.7163633043
 20
-67.8685434735
  0
LWPOLYLINE
  5
E5
330
1F
100
AcDbEntity
  8
0
  6
Continuous
 62
     7
370
    25
100
AcDbPolyline
 90
      107
 70
   128
 43
0.0
 10
244.9489524988
 20
-64.8478340291
 10
245.0173805416
 20
-62.1430127304
 10
245.2224223254
 20
-59.368687676
 10
245.5633560855
 20
-56.5346056513
 10
246.0389859052
 20
-53.6507194821
 10
246.6476390812
 20
-50.7271602785
 10
247.3871819295
 20
-47.7741956102
 10
248.2550145163
 20
-44.8021979471
 10
249.2480890976
 20
-41.8216066378
 10
250.3629153876
 20
-38.8428929287
 10
251.5955789976
 20
-35.8765189011
 10
252.9417493391
 20
-32.9329024901
 10
254.3967006965
 20
-30.0223855478
 10
255.9553174962
 20
-27.1551882152
 10
257.6121311846
 20
-24.3413845918
 10
259.3613175941
 20
-21.5908586276
 10
261.1967338214
 20
-18.9132676249
 10
263.1119327158
 20
-16.3180217072
 10
265.1001879038
 20
-13.8142328699
 10
267.1545161794
 20
-11.4106990137
 10
269.2676998947
 20
-9.1158575573
 10
271.4323159361
 20
-6.9377747947
 10
273.6407633829
 20
-4.8840995088
 10
275.8852839221
 20
-2.9620451029
 10
278.1579934591
 20
-1.1783622267
 10
280.4509084586
 20
0.4606855557
 10
282.7559757446
 20
1.9493359272
 10
285.0650985123
 20
3.2823641267
 10
287.3701657983
 20
4.4550877947
 10
289.6630807978
 20
5.4633833204
 10
291.9357903348
 20
6.3037150219
 10
294.180310874
 20
6.9731288697
 10
296.3887583208
 20
7.4692727314
 10
298.5533743622
 20
7.7904024529
 10
300.6665580775
 20
7.9353909811
 10
302.7208863531
 20
7.9037340649
 10
304.7091415411
 20
7.6955358047
 10
306.6243404355
 20
7.3115314629
 10
308.4597566629
 20
6.7530669294
 10
310.2089430723
 20
6.0221086058
 10
311.8657567607
 20
5.1212213494
 10
313.4243735604
 20
4.0535646696
 10
314.8793249178
 20
2.8228988079
 10
316.2254952593
 20
1.4335375899
 10
317.4581588693
 20
-0.1096333273
 10
318.5729851593
 20
-1.8011959998
 10
319.5660597406
 20
-3.6352078031
 10
320.4338923274
 20
-5.6052272892
 10
321.1734351757
 20
-7.7043339598
 10
321.7820883517
 20
-9.9251571645
 10
322.2577181714
 20
-12.2598928329
 10
322.5986519315
 20
-14.7003411169
 10
322.8036937153
 20
-17.2379299667
 10
322.8721217581
 20
-19.863745929
 10
322.8036937153
 20
-22.5685672277
 10
322.5986519315
 20
-25.342892282
 10
322.2577181714
 20
-28.1769743068
 10
321.7820883517
 20
-31.060860476
 10
321.1734351757
 20
-33.9844196796
 10
320.4338923274
 20
-36.9373843479
 10
319.5660597406
 20
-39.909382011
 10
318.5729851593
 20
-42.8899733203
 10
317.4581588693
 20
-45.8686870294
 10
316.2254952593
 20
-48.835061057
 10
314.8793249178
 20
-51.778677468
 10
313.4243735604
 20
-54.6891944103
 10
311.8657567607
 20
-57.5563917428
 10
310.2089430723
 20
-60.3701953663
 10
308.4597566629
 20
-63.1207213305
 10
306.6243404355
 20
-65.7983123331
 10
304.7091415411
 20
-68.3935582509
 10
302.7208863531
 20
-70.8973470881
 10
300.6665580775
 20
-73.3008809444
 10
298.5533743622
 20
-75.5957224008
 10
296.3887583208
 20
-77.7738051634
 10
294.180310874
 20
-79.8274804493
 10
291.9357903348
 20
-81.7495348552
 10
289.6630807978
 20
-83.5332177313
 10
287.3701657983
 20
-85.1722655138
 10
285.0650985123
 20
-86.6609158853
 10
282.7559757446
 20
-87.9939440848
 10
280.4509084586
 20
-89.1666677528
 10
278.1579934591
 20
-90.1749632785
 10
275.8852839221
 20
-91.0152949799
 10
273.6407633829
 20
-91.6847088277
 10
271.4323159361
 20
-92.1808526895
 10
269.2676998947
 20
-92.501982411
 10
267.1545161794
 20
-92.6469709391
 10
265.1001879038
 20
-92.615314023
 10
263.1119327158
 20
-92.4071157628
 10
261.1967338214
 20
-92.023111421
 10
259.3613175941
 20
-91.4646468875
 10
257.6121311846
 20
-90.7336885639
 10
255.9553174962
 20
-89.8328013075
 10
254.3967006965
 20
-88.7651446276
 10
252.9417493391
 20
-87.5344787659
 10
251.5955789976
 20
-86.145117548
 10
250.3629153876
 20
-84.6019466308
 10
249.2480890976
 20
-82.9103839583
 10
248.2550145163
 20
-81.0763721549
 10
247.3871819295
 20
-79.1063526688
 10
246.6476390812
 20
-77.0072459983
 10
246.0389859052
 20
-74.7864227936
 10
245.5633560855
 20
-72.4516871252
 10
245.2224223254
 20
-70.0112388411
 10
245.0173805416
 20
-67.4736499913
 10
244.9489524988
 20
-64.8478340291
  0
ARC
  5
E6
330
1F
100
AcDbEntity
  8
0
  6
Continuous
 62
     7
370
    25
100
AcDbCircle
 10
361.5412200308
 20
-46.1804975349
 30
0.0
 40
27.26184010925544
100
AcDbArc
 50
23.6302903573
 51
36.2984101432
  0
ARC
  5
E7
330
1F
100
AcDbEntity
  8
0
  6
Continuous
 62
     7
370
    25
100
AcDbCircle
 10
326.0473004242
 20
-107.4010638313
 30
0.0
 40
27.52924727538092
100
AcDbArc
 50
263.8174312413
 51
276.7447867298
  0
LINE
  5
E8
330
1F
100
AcDbEntity
  8
0
  6
Continuous
 62
     7
370
    25
100
AcDbLine
 10
374.4339980242
 20
-135.7723324651
 30
0.0
 11
373.9795667523
 21
-135.7707285941
 31
0.0
  0
LWPOLYLINE
  5
E9
330
1F
100
AcDbEntity
  8
0
  6
Continuous
 62
     7
370
    25
100
AcDbPolyline
 90
       46
 70
   128
 43
0.0
 10
454.6869739463
 20
-97.642830558
 10
454.6884978183
 20
-97.6437105565
 10
455.9783349455
 20
-98.4988922585
 10
457.1660528928
 20
-99.515206465
 10
458.2455996364
 20
-100.6874746162
 10
459.2114763296
 20
-102.0097197184
 10
460.0587570593
 20
-103.4752096919
 10
460.7831296763
 20
-105.0764718235
 10
461.3808984288
 20
-106.8053482811
 10
461.8490155727
 20
-108.6530310976
 10
462.1851024452
 20
-110.6101005761
 10
462.3874415624
 20
-112.6665872672
 10
462.4550029605
 20
-114.8120107549
 10
462.3874415624
 20
-117.0354389725
 10
462.1851024452
 20
-119.3255414356
 10
461.8490155727
 20
-121.6706485576
 10
461.3808984288
 20
-124.058807924
 10
460.7831296763
 20
-126.4778534925
 10
460.0587570593
 20
-128.9154584457
 10
459.2114763296
 20
-131.3591979271
 10
458.2455996364
 20
-133.796620522
 10
457.1660528928
 20
-136.2153068126
 10
455.9783349455
 20
-138.602930972
 10
454.6884978183
 20
-140.9473269222
 10
453.3031151027
 20
-143.2365476475
 10
451.8292463957
 20
-145.4589267887
 10
450.2744017389
 20
-147.6031402371
 10
448.646506057
 20
-149.6582631659
 10
446.9538517423
 20
-151.6138202166
 10
445.2050657279
 20
-153.4598516556
 10
443.4090600967
 20
-155.1869449292
 10
441.5749859831
 20
-156.7862977778
 10
439.7121897801
 20
-158.2497678515
 10
437.8301634188
 20
-159.5698922879
 10
435.9384976124
 20
-160.7399451223
 10
434.0468318059
 20
-161.7539631388
 10
432.1648054447
 20
-162.6067800867
 10
430.3020092416
 20
-163.2940487292
 10
428.467935128
 20
-163.8122727783
 10
426.6719294968
 20
-164.1588034682
 10
424.9231434824
 20
-164.3318773835
 10
423.2304891678
 20
-164.3306174062
 10
421.6025934858
 20
-164.1550228249
 10
420.047748829
 20
-163.8059948056
 10
418.5738801221
 20
-163.2853082519
 10
417.1900212784
 20
-162.5964963617
  0
LWPOLYLINE
  5
EA
330
1F
100
AcDbEntity
  8
0
  6
Continuous
 62
     1
370
    25
100
AcDbPolyline
 90
       56
 70
   128
 43
0.0
 10
378.4935758873
 20
-24.9672775605
 10
379.0793090803
 20
-25.4236421958
 10
380.5997698113
 20
-26.7746787499
 10
382.0106197601
 20
-28.2831254002
 10
383.3074940938
 20
-29.9443200995
 10
384.4863862277
 20
-31.7531293474
 10
385.5436504593
 20
-33.7039603577
 10
386.4760204079
 20
-35.7907838741
 10
387.2806142827
 20
-38.0071509008
 10
387.9549454196
 20
-40.3462071526
 10
388.4969275497
 20
-42.8007272756
 10
388.9048879699
 20
-45.3631209329
 10
389.1775622747
 20
-48.0254712069
 10
389.3141127955
 20
-50.7795452476
 10
389.3141127955
 20
-53.6168330552
 10
389.1775622747
 20
-56.5285649715
 10
388.9048879699
 20
-59.5057382965
 10
388.4969275497
 20
-62.539153029
 10
387.9549454196
 20
-65.6194323998
 10
387.2806142827
 20
-68.73705481
 10
386.4760204079
 20
-71.882386151
 10
385.5436504593
 20
-75.0457010962
 10
384.4863862277
 20
-78.2172234052
 10
383.3074940938
 20
-81.3871525386
 10
382.0106197601
 20
-84.5456864719
 10
380.5997698113
 20
-87.6830658003
 10
379.0793090803
 20
-90.7895889477
 10
377.4539343068
 20
-93.8556577924
 10
375.728668868
 20
-96.8717928752
 10
373.9088443405
 20
-99.8286744632
 10
372.0000899626
 20
-102.7171607998
 10
370.008303659
 20
-105.5283200412
 10
367.9396415036
 20
-108.2534697998
 10
365.8004979638
 20
-110.8841824654
 10
363.5974848263
 20
-113.4123308311
 10
361.3374101243
 20
-115.8300972166
 10
359.0272623321
 20
-118.1300069275
 10
356.6741800721
 20
-120.3049548683
 10
354.2854369685
 20
-122.3482142867
 10
351.8684166223
 20
-124.2534725125
 10
349.4305902208
 20
-126.0148438837
 10
346.9794923366
 20
-127.6268745922
 10
344.5226994417
 20
-129.084591589
 10
342.06780546
 20
-130.3834832373
 10
339.6223982234
 20
-131.519537239
 10
337.1940364237
 20
-132.4892417729
 10
334.7902258217
 20
-133.289599228
 10
332.4183961167
 20
-133.9181365159
 10
330.0858802017
 20
-134.3729079197
 10
327.7998851878
 20
-134.6525118222
 10
325.5674785748
 20
-134.7560804379
 10
323.3955605919
 20
-134.6832957803
 10
321.2908431247
 20
-134.4343835763
 10
319.2598339102
 20
-134.0101132645
 10
317.3088115116
 20
-133.4117911488
 10
315.9878555223
 20
-132.8877326021
  0
LWPOLYLINE
  5
EB
330
1F
100
AcDbEntity
  8
0
  6
Continuous
 62
     1
370
    25
100
AcDbPolyline
 90
       44
 70
   128
 43
0.0
 10
386.5171807568
 20
-35.2530407422
 10
386.9277648182
 20
-36.2234801083
 10
387.7302539848
 20
-38.4340537312
 10
388.4028228566
 20
-40.7669979773
 10
388.9433877989
 20
-43.2151027025
 10
389.3502813769
 20
-45.7708003839
 10
389.6222444537
 20
-48.426191215
 10
389.7584367263
 20
-51.173067631
 10
389.7584367263
 20
-54.0029397846
 10
389.6222444537
 20
-56.9070604516
 10
389.3502813769
 20
-59.8764531673
 10
388.9433877989
 20
-62.9019401742
 10
388.4028228566
 20
-65.9741678969
 10
387.7302539848
 20
-69.0836436335
 10
386.9277648182
 20
-72.2207515263
 10
385.9978288502
 20
-75.3758004683
 10
384.9433278713
 20
-78.539033991
 10
383.7675177257
 20
-81.700675889
 10
382.4740335791
 20
-84.8509560762
 10
381.0668714795
 20
-87.9801349188
 10
379.5503830891
 20
-91.0785397372
 10
377.9292572447
 20
-94.1365952226
 10
376.2085015187
 20
-97.1448462493
 10
374.3934343167
 20
-100.0939989389
 10
372.489669072
 20
-102.974935868
 10
370.5030879042
 20
-105.7787495263
 10
368.4398337163
 20
-108.4967742551
 10
366.3062799023
 20
-111.1206128607
 10
364.1090237609
 20
-113.6421525836
 10
361.8548562031
 20
-116.0536008372
 10
359.5507459469
 20
-118.3475004159
 10
357.2038144927
 20
-120.5167621924
 10
354.821314391
 20
-122.5546807052
 10
352.4106114622
 20
-124.4549626744
 10
349.9791561496
 20
-126.2117283296
 10
347.5344645863
 20
-127.8195466748
 10
345.084092912
 20
-129.2734533569
 10
342.6356150471
 20
-130.5689513287
 10
340.1965993143
 20
-131.7020365127
 10
337.7745842372
 20
-132.6692056884
 10
335.3770561498
 20
-133.4674694183
 10
333.0114259828
 20
-134.0943654485
 10
330.6850055558
 20
-134.5479480603
 10
329.2805290007
 20
-134.7397852447
  0
LWPOLYLINE
  5
EC
330
1F
100
AcDbEntity
  8
0
  6
Continuous
 62
     1
370
    25
100
AcDbPolyline
 90
       37
 70
   128
 43
0.0
 10
409.8476991418
 20
-73.6385710086
 10
410.3983714252
 20
-74.6301598253
 10
411.1258971533
 20
-76.2383972184
 10
411.7262711078
 20
-77.9748047845
 10
412.1964297396
 20
-79.8305342504
 10
412.533978581
 20
-81.7961305562
 10
412.7371975136
 20
-83.8615761531
 10
412.8050539397
 20
-86.0163448068
 10
412.7371975136
 20
-88.2494588225
 10
412.533978581
 20
-90.5495360047
 10
412.1964297396
 20
-92.9048579072
 10
411.7262711078
 20
-95.3034209749
 10
411.1258971533
 20
-97.7330055542
 10
410.3983714252
 20
-100.1812262735
 10
409.547400212
 20
-102.6356103681
 10
408.5773167365
 20
-105.0836516721
 10
407.493066668
 20
-107.5128737348
 10
406.3001738779
 20
-109.9108997804
 10
405.004718049
 20
-112.2655066991
 10
403.6133017486
 20
-114.5646988081
 10
402.1330122327
 20
-116.7967603208
 10
400.5713951042
 20
-118.9503146599
 10
398.9364068979
 20
-121.0143898529
 10
397.2363795189
 20
-122.978464917
 10
395.4799767788
 20
-124.8325344945
 10
393.6761469802
 20
-126.567152955
 10
391.8340840632
 20
-128.1734750766
 10
389.9631729455
 20
-129.6433180185
 10
388.0729485283
 20
-130.9691910703
 10
386.173042519
 20
-132.1443415598
 10
384.2731365098
 20
-133.1627758568
 10
382.3829120926
 20
-134.0193094632
 10
380.5120009749
 20
-134.7095745187
 10
378.6699380578
 20
-135.2300529709
 10
376.8661082593
 20
-135.5780920652
 10
375.1097055192
 20
-135.7519219264
 10
374.4339980242
 20
-135.7723324651
  0
LWPOLYLINE
  5
ED
330
1F
100
AcDbEntity
  8
0
  6
Continuous
 62
     1
370
    25
100
AcDbPolyline
 90
       41
 70
   128
 43
0.0
 10
409.0115188382
 20
-72.2471039041
 10
409.0399337166
 20
-72.2816483158
 10
410.0058104098
 20
-73.603893418
 10
410.8530911396
 20
-75.0693833914
 10
411.5774637566
 20
-76.670645523
 10
412.175232509
 20
-78.3995219807
 10
412.6433496529
 20
-80.2472047971
 10
412.9794365254
 20
-82.2042742756
 10
413.1817756426
 20
-84.2607609667
 10
413.2493370408
 20
-86.4061844544
 10
413.1817756426
 20
-88.6296126721
 10
412.9794365254
 20
-90.9197151352
 10
412.6433496529
 20
-93.2648222571
 10
412.175232509
 20
-95.6529816235
 10
411.5774637566
 20
-98.0720271921
 10
410.8530911396
 20
-100.5096321452
 10
410.0058104098
 20
-102.9533716266
 10
409.0399337166
 20
-105.3907942215
 10
407.9603869731
 20
-107.8094805122
 10
406.7726690257
 20
-110.1971046715
 10
405.4828318985
 20
-112.5415006217
 10
404.0974491829
 20
-114.830721347
 10
402.6235804759
 20
-117.0531004882
 10
401.0687358192
 20
-119.1973139366
 10
399.4408401372
 20
-121.2524368655
 10
397.7481858225
 20
-123.2079939161
 10
395.9993998082
 20
-125.0540253551
 10
394.2033941769
 20
-126.7811186287
 10
392.3693200633
 20
-128.3804714773
 10
390.5065238603
 20
-129.843941551
 10
388.6244974991
 20
-131.1640659874
 10
386.7328316926
 20
-132.3341188218
 10
384.8411658861
 20
-133.3481368383
 10
382.9591395249
 20
-134.2009537862
 10
381.0963433219
 20
-134.8882224288
 10
379.2622692083
 20
-135.4064464779
 10
377.466263577
 20
-135.7529771677
 10
375.7174775627
 20
-135.9260510831
 10
374.024823248
 20
-135.9247911058
 10
372.396927566
 20
-135.7491965244
 10
372.3564283959
 20
-135.7424618672
  0
ENDSEC
  0
SECTION
  2
OBJECTS
  0
DICTIONARY
  5
C
330
0
100
AcDbDictionary
281
     1
  3
ACAD_GROUP
350
D
  3
ACAD_LAYOUT
350
1A
  3
ACAD_MLINESTYLE
350
17
  3
ACAD_PLOTSETTINGS
350
19
  3
ACAD_PLOTSTYLENAME
350
E
  3
ACAD_SCALELIST
350
47
  0
DICTIONARY
  5
D
102
{ACAD_REACTORS
330
C
102
}
330
C
100
AcDbDictionary
281
     1
  0
DICTIONARY
  5
1A
102
{ACAD_REACTORS
330
C
102
}
330
C
100
AcDbDictionary
281
     1
  3
Layout1
350
1E
  3
Layout2
350
26
  3
Model
350
22
  0
DICTIONARY
  5
17
102
{ACAD_REACTORS
330
C
102
}
330
C
100
AcDbDictionary
281
     1
  3
Standard
350
18
  0
DICTIONARY
  5
19
102
{ACAD_REACTORS
330
C
102
}
330
C
100
AcDbDictionary
281
     1
  0
ACDBDICTIONARYWDFLT
  5
E
102
{ACAD_REACTORS
330
C
102
}
330
C
100
AcDbDictionary
281
     1
  3
Normal
350
F
100
AcDbDictionaryWithDefault
340
F
  0
DICTIONARY
  5
47
102
{ACAD_REACTORS
330
C
102
}
330
C
100
AcDbDictionary
281
     1
  3
A0
350
48
  3
A1
350
49
  3
A2
350
4A
  3
A3
350
4B
  3
A4
350
4C
  3
A5
350
4D
  3
A6
350
4E
  3
A7
350
4F
  3
A8
350
50
  3
A9
350
51
  3
B0
350
52
  3
B1
350
53
  3
B2
350
54
  3
B3
350
55
  3
B4
350
56
  3
B5
350
57
  3
B6
350
58
  3
B7
350
59
  3
B8
350
5A
  3
B9
350
5B
  3
C0
350
5C
  3
C1
350
5D
  3
C2
350
5E
  3
C3
350
5F
  3
C4
350
60
  3
C5
350
61
  3
C6
350
62
  3
C7
350
63
  3
C8
350
64
  3
C9
350
65
  3
D0
350
66
  3
D1
350
67
  3
D2
350
68
  0
LAYOUT
  5
1E
102
{ACAD_REACTORS
330
1A
102
}
330
1A
100
AcDbPlotSettings
  1

  2
none_device
  4

  6

 40
0.0
 41
0.0
 42
0.0
 43
0.0
 44
0.0
 45
0.0
 46
0.0
 47
0.0
 48
0.0
 49
0.0
140
0.0
141
0.0
142
1.0
143
1.0
 70
   688
 72
     1
 73
     0
 74
     5
  7

 75
    16
147
1.0
148
0.0
149
0.0
100
AcDbLayout
  1
Layout1
 70
     1
 71
     1
 10
0.0
 20
0.0
 11
420.0
 21
297.0
 12
0.0
 22
0.0
 32
0.0
 14
1.0000000000E+20
 24
1.0000000000E+20
 34
1.0000000000E+20
 15
-1.0000000000E+20
 25
-1.0000000000E+20
 35
-1.0000000000E+20
146
0.0
 13
0.0
 23
0.0
 33
0.0
 16
1.0
 26
0.0
 36
0.0
 17
0.0
 27
1.0
 37
0.0
 76
     0
330
1B
  0
LAYOUT
  5
26
102
{ACAD_REACTORS
330
1A
102
}
330
1A
100
AcDbPlotSettings
  1

  2
none_device
  4

  6

 40
0.0
 41
0.0
 42
0.0
 43
0.0
 44
0.0
 45
0.0
 46
0.0
 47
0.0
 48
0.0
 49
0.0
140
0.0
141
0.0
142
1.0
143
1.0
 70
   688
 72
     1
 73
     0
 74
     5
  7

 75
    16
147
1.0
148
0.0
149
0.0
100
AcDbLayout
  1
Layout2
 70
     1
 71
     2
 10
0.0
 20
0.0
 11
0.0
 21
0.0
 12
0.0
 22
0.0
 32
0.0
 14
0.0
 24
0.0
 34
0.0
 15
0.0
 25
0.0
 35
0.0
146
0.0
 13
0.0
 23
0.0
 33
0.0
 16
1.0
 26
0.0
 36
0.0
 17
0.0
 27
1.0
 37
0.0
 76
     0
330
23
  0
LAYOUT
  5
22
102
{ACAD_REACTORS
330
1A
102
}
330
1A
100
AcDbPlotSettings
  1

  2
none_device
  4
Letter_(8.50_x_11.00_Inches)
  6

 40
6.35
 41
6.35
 42
6.35000508
 43
6.35000508
 44
215.9
 45
279.4
 46
0.0
 47
0.0
 48
0.0
 49
0.0
140
0.0
141
0.0
142
1.0
143
1.0
 70
  1712
 72
     1
 73
     0
 74
     0
  7

 75
     0
147
1.0
148
0.0
149
0.0
100
AcDbLayout
  1
Model
 70
     1
 71
     0
 10
0.0
 20
0.0
 11
279.4
 21
215.9
 12
0.0
 22
0.0
 32
0.0
 14
0.0
 24
0.0
 34
0.0
 15
279.4
 25
215.9
 35
0.0
146
0.0
 13
0.0
 23
0.0
 33
0.0
 16
1.0
 26
0.0
 36
0.0
 17
0.0
 27
1.0
 37
0.0
 76
     0
330
1F
331
29
  0
MLINESTYLE
  5
18
102
{ACAD_REACTORS
330
17
102
}
330
17
100
AcDbMlineStyle
  2
Standard
 70
     0
  3

 62
   256
 51
90.0
 52
90.0
 71
     2
 49
0.5
 62
   256
  6
BYLAYER
 49
-0.5
 62
   256
  6
BYLAYER
  0
ACDBPLACEHOLDER
  5
F
102
{ACAD_REACTORS
330
E
102
}
330
E
  0
SCALE
  5
48
102
{ACAD_REACTORS
330
47
102
}
330
47
100
AcDbScale
 70
     0
300
1:1
140
1.0
141
1.0
290
     1
  0
SCALE
  5
49
102
{ACAD_REACTORS
330
47
102
}
330
47
100
AcDbScale
 70
     0
300
1:2
140
1.0
141
2.0
290
     0
  0
SCALE
  5
4A
102
{ACAD_REACTORS
330
47
102
}
330
47
100
AcDbScale
 70
     0
300
1:4
140
1.0
141
4.0
290
     0
  0
SCALE
  5
4B
102
{ACAD_REACTORS
330
47
102
}
330
47
100
AcDbScale
 70
     0
300
1:5
140
1.0
141
5.0
290
     0
  0
SCALE
  5
4C
102
{ACAD_REACTORS
330
47
102
}
330
47
100
AcDbScale
 70
     0
300
1:8
140
1.0
141
8.0
290
     0
  0
SCALE
  5
4D
102
{ACAD_REACTORS
330
47
102
}
330
47
100
AcDbScale
 70
     0
300
1:10
140
1.0
141
10.0
290
     0
  0
SCALE
  5
4E
102
{ACAD_REACTORS
330
47
102
}
330
47
100
AcDbScale
 70
     0
300
1:16
140
1.0
141
16.0
290
     0
  0
SCALE
  5
4F
102
{ACAD_REACTORS
330
47
102
}
330
47
100
AcDbScale
 70
     0
300
1:20
140
1.0
141
20.0
290
     0
  0
SCALE
  5
50
102
{ACAD_REACTORS
330
47
102
}
330
47
100
AcDbScale
 70
     0
300
1:30
140
1.0
141
30.0
290
     0
  0
SCALE
  5
51
102
{ACAD_REACTORS
330
47
102
}
330
47
100
AcDbScale
 70
     0
300
1:40
140
1.0
141
40.0
290
     0
  0
SCALE
  5
52
102
{ACAD_REACTORS
330
47
102
}
330
47
100
AcDbScale
 70
     0
300
1:50
140
1.0
141
50.0
290
     0
  0
SCALE
  5
53
102
{ACAD_REACTORS
330
47
102
}
330
47
100
AcDbScale
 70
     0
300
1:100
140
1.0
141
100.0
290
     0
  0
SCALE
  5
54
102
{ACAD_REACTORS
330
47
102
}
330
47
100
AcDbScale
 70
     0
300
2:1
140
2.0
141
1.0
290
     0
  0
SCALE
  5
55
102
{ACAD_REACTORS
330
47
102
}
330
47
100
AcDbScale
 70
     0
300
4:1
140
4.0
141
1.0
290
     0
  0
SCALE
  5
56
102
{ACAD_REACTORS
330
47
102
}
330
47
100
AcDbScale
 70
     0
300
8:1
140
8.0
141
1.0
290
     0
  0
SCALE
  5
57
102
{ACAD_REACTORS
330
47
102
}
330
47
100
AcDbScale
 70
     0
300
10:1
140
10.0
141
1.0
290
     0
  0
SCALE
  5
58
102
{ACAD_REACTORS
330
47
102
}
330
47
100
AcDbScale
 70
     0
300
100:1
140
100.0
141
1.0
290
     0
  0
SCALE
  5
59
102
{ACAD_REACTORS
330
47
102
}
330
47
100
AcDbScale
 70
     0
300
1/128" = 1'-0"
140
0.0078125
141
12.0
290
     0
  0
SCALE
  5
5A
102
{ACAD_REACTORS
330
47
102
}
330
47
100
AcDbScale
 70
     0
300
1/64" = 1'-0"
140
0.015625
141
12.0
290
     0
  0
SCALE
  5
5B
102
{ACAD_REACTORS
330
47
102
}
330
47
100
AcDbScale
 70
     0
300
1/32" = 1'-0"
140
0.03125
141
12.0
290
     0
  0
SCALE
  5
5C
102
{ACAD_REACTORS
330
47
102
}
330
47
100
AcDbScale
 70
     0
300
1/16" = 1'-0"
140
0.0625
141
12.0
290
     0
  0
SCALE
  5
5D
102
{ACAD_REACTORS
330
47
102
}
330
47
100
AcDbScale
 70
     0
300
3/32" = 1'-0"
140
0.09375
141
12.0
290
     0
  0
SCALE
  5
5E
102
{ACAD_REACTORS
330
47
102
}
330
47
100
AcDbScale
 70
     0
300
1/8" = 1'-0"
140
0.125
141
12.0
290
     0
  0
SCALE
  5
5F
102
{ACAD_REACTORS
330
47
102
}
330
47
100
AcDbScale
 70
     0
300
3/16" = 1'-0"
140
0.1875
141
12.0
290
     0
  0
SCALE
  5
60
102
{ACAD_REACTORS
330
47
102
}
330
47
100
AcDbScale
 70
     0
300
1/4" = 1'-0"
140
0.25
141
12.0
290
     0
  0
SCALE
  5
61
102
{ACAD_REACTORS
330
47
102
}
330
47
100
AcDbScale
 70
     0
300
3/8" = 1'-0"
140
0.375
141
12.0
290
     0
  0
SCALE
  5
62
102
{ACAD_REACTORS
330
47
102
}
330
47
100
AcDbScale
 70
     0
300
1/2" = 1'-0"
140
0.5
141
12.0
290
     0
  0
SCALE
  5
63
102
{ACAD_REACTORS
330
47
102
}
330
47
100
AcDbScale
 70
     0
300
3/4" = 1'-0"
140
0.75
141
12.0
290
     0
  0
SCALE
  5
64
102
{ACAD_REACTORS
330
47
102
}
330
47
100
AcDbScale
 70
     0
300
1" = 1'-0"
140
1.0
141
12.0
290
     0
  0
SCALE
  5
65
102
{ACAD_REACTORS
330
47
102
}
330
47
100
AcDbScale
 70
     0
300
1-1/2" = 1'-0"
140
1.5
141
12.0
290
     0
  0
SCALE
  5
66
102
{ACAD_REACTORS
330
47
102
}
330
47
100
AcDbScale
 70
     0
300
3" = 1'-0"
140
3.0
141
12.0
290
     0
  0
SCALE
  5
67
102
{ACAD_REACTORS
330
47
102
}
330
47
100
AcDbScale
 70
     0
300
6" = 1'-0"
140
6.0
141
12.0
290
     0
  0
SCALE
  5
68
102
{ACAD_REACTORS
330
47
102
}
330
47
100
AcDbScale
 70
     0
300
1'-0" = 1'-0"
140
12.0
141
12.0
290
     0
  0
ENDSEC
  0
EOF
